Awatar użytkownika
dizzit
Posty: 3
Rejestracja: 06-05-2007 14:51

16-01-2018 22:17

Czy jest ktoś w stanie roztrzaskać tą melodyjkę. Pomimo podpowiedzi autora nie jestem w stanie sobie z tym poradzić.
Może ktoś dla sportu to rozjedzie :)

https://www.youtube.com/watch?v=vkobdz36ogg

petlica
Posty: 99
Rejestracja: 13-12-2010 21:45

18-01-2018 22:28

Na początek przestroić trzeba gitarę o cały ton w dół. Później pójdzie łatwo :) Pozdr

Pewnie coś koło tego

Kod: Zaznacz cały


                                     x3
|----------8-------|----------0-------|
|-----6--------6---|-----6--------8---|
|---7---7----7---7-|---7---7----7---7-|
|-0----------------|-0----------------|
|------------------|------------------|
|------------------|------------------|


|----------8-------|------------------|
|-----6--------6---|-----6--------6---|
|---7---7----7---7-|---7---7----7-----|
|-0----------------|-0--------8-----8-|
|------------------|------------------|
|------------------|------------------|



|---------------------|----------------------|
|-----------0---------|-----------10---------|
|------9---------9----|------9----------9----|
|---10---10---10---10-|---10---10----10---10-|
|-0-------------------|-0--------------------|
|---------------------|----------------------|

|---------------------|----------------------|
|-----------0---------|-----------10---------|
|------9---------9----|------9---------------|
|---10---10---10---10-|---10---10------------|
|-0-------------------|-0--------------------|
|---------------------|----------------------|

Wróć do „Szukam opracowania”