Awatar użytkownika
RurzowyRzufff
Posty: 15
Rejestracja: 13-06-2015 19:47

12-10-2016 19:22

szukam jak w tytule - nie bardzo mam koncepcję jak to złapać, to na pewno jakiś slajd i tyle w sumie wiem
Firestrat (⌐ ͡■ ͜ʖ ͡■)

petlica
Posty: 99
Rejestracja: 13-12-2010 21:45

19-10-2016 09:55

Intro/główny riff to bym zagrał tak

Kod: Zaznacz cały

                                        x3
|-----------------------------------------|-------------------------------------------------|
|-------------13~------------13~----------|------------13----------16-------16-------16-----|
|------(7)/14---------(7)/14------/14-10~-|-----(7)/14------/17-17----17-17----17-17----14~-|
|-0-0-------------0-0---------------------|-0-0---------------------------------------------|
|-----------------------------------------|-------------------------------------------------|
|-----------------------------------------|-------------------------------------------------|

                                     
|-----------------------------------------|----------------------|
|-------------13~------------13~----------|----------------------|
|------(7)/14---------(7)/14------/14-10~-|----------------------|
|-0-0-------------0-0---------------------|----------------------|
|-----------------------------------------|-3---3---3---3---3-3--|
|-----------------------------------------|-3---3---3---3---3-3--|
                                            pm....................
 



Pozdr

Wróć do „Szukam opracowania”