Aga250909
Posty: 16
Rejestracja: 24-11-2014 20:10

07-12-2015 16:52

Poszukuję tabulatury do solo w piosence "Kocham cię kochanie moje" zespołu Maanam od 2:18 min do 3:03 min.

Dziękuję za pomoc! :)

petlica
Posty: 100
Rejestracja: 13-12-2010 21:45

13-12-2015 00:39

Kod: Zaznacz cały


|---------14--------------14-------------14--------------------|
|-17b(19)---------17b(19)--------17b(19)-----15----------------|
|-----------------------------------------------16--16~--------|
|--------------------------------------------------------------|
|--------------------------------------------------------------|
|--------------------------------------------------------------|



|----------------------------------------------------------------------|
|----------------------------------------------------------------------|
|----14-16b(19)-------14-16b(19)-------14-16b(19)r(16)-14-14-14/16~----|
|-16---------------16---------------16---------------------------------|
|----------------------------------------------------------------------|
|----------------------------------------------------------------------|


|-----17--14-------------------------------------------|
|-------------15------17--17b(19)--15------------------|
|-16--------------16------------------16-16---14/------|
|------------------------------------------------------|
|------------------------------------------------------|
|------------------------------------------------------|


|------------------------------------------------------|
|------------------------------------------------------|
|-9b(11)r(9)p7-9p7-9p7-9b(11)----9b(11)r(9)p(7)-9b(11)-|
|------------------------------------------------------|
|------------------------------------------------------|
|------------------------------------------------------|



|--------------------------------------|
|--------------------------------------|
|-9p7-9b(11)-9b(11)-7------------------|
|----------------------9-7--7--7---7-8-|
|--------------------------------------|
|--------------------------------------|



|---------------------------------------------------|
|---------------------------------------------------|
|---------------------------------------------------|
|-9-9------9-7--------------------------7-7-7-7-7-8-|
|--------------9-9-----9-8-7-7------7-8-------------|
|---------------------------------------------------|

Wróć do „Szukam opracowania”