brzeszczot84
Posty: 4
Rejestracja: 02-10-2015 11:00

02-11-2015 17:39

Witam

Potrzebuje pomocy w zidentyfikowaniu riffu w tym kawalku :

https://www.youtube.com/watch?v=z3exoXHjHYY

riff brzmi dość prosto wiem, ale nie mam jeszcze tak dobrego ucha by
zidentyfikować riff, a potrzebuję tabów by to zagrać

petlica
Posty: 100
Rejestracja: 13-12-2010 21:45

03-11-2015 18:19

Tak na szybko, to schemat jest mniej więcej taki

Kod: Zaznacz cały

 Riff A
|------------------------------|----------------------|
|------------------------------|----------------------|
|------------------------------|----------------------|
|-9/---------12/11-12/11-12/11-|-9/-------------------|
|-7/---------10/9--10/9--10/9--|-7/--------5---7---9--|
|----0-0-0-0-------------------|---0-0-0-0-3---5---7--|


|------------------------------|----------------------|
|------------------------------|----------------------|
|------------------------------|----------------------|
|-9/---------12/11-12/11-12/11-|-9/--------12--11--7--|
|-7/---------10/9--10/9--10/9--|-7/--------10--9---5--|
|----0-0-0-0-------------------|---0-0-0-0------------|


Verse
C      G D
Riff A


Ref
E(VII)  G(X)  D(V)  E(VII)

brzeszczot84
Posty: 4
Rejestracja: 02-10-2015 11:00

14-11-2015 14:07

Dzięki wielkie o to chodziło, jeszcze nie wiem jak zrobić ten slajd na początku 9/ i 7/ ale ok będe działał, dzięki.

Wróć do „Szukam opracowania”