Awatar użytkownika
radd91
Posty: 26
Rejestracja: 19-12-2013 20:59

08-10-2015 00:02

Cześć!

Proszę Was o pomoc w rozpracowaniu piosenki Differences grupy Afromental. Najważniejsze dla mnie jest to, czy jest to standardowy tuning? Bo mam wrażenie, że nie (co najmniej o połowę tonu niżej, ale wolę zapytać). Druga sprawa to intro i wersy, jaki jest patern? Trzecia sprawa to oczywiście akordy w tym paternie i potem w refrenie:)

Za pomoc stawiam piwo (gotówką lub przelewem) ;)
Pozdrawiam.

petlica
Posty: 100
Rejestracja: 13-12-2010 21:45

08-10-2015 17:37

Strój lekko chyba nietypowy, żeby łatwiej było zagrać.
Stój standard oprócz struny D która jest podciągnięta do E. Chyba coś koło tego będzię.
Pozdr

Kod: Zaznacz cały

Struna D pociągnięta 1 ton w górę do E


Intro
|-------------------------0-------|-------------------------0-------|
|-----------------------0---0-----|-------0---------------0---0-----|
|-------1-------------2-------2---|-----2---------------2-------2---|
|-----2-------------3-----------3-|---0---------------3-----------3-|
|---2-------------3---------------|-4---------------3---------------|
|-0-------------------------------|---------------------------------|


|-------------------------0-------|---------------------------------|
|----------0------------0---0-----|-----0---------------0-----------|
|-------1-------------2-------2---|-------2---------------2---------|
|-----2-------------3-----------3-|---0---------------3-------------|
|---2----------2--3---------------|-4------------0--3---------------|
|-0-------------------------------|---------------------------------|



 Verse
|-------------------------0-------|---------------------------------|
|-----------------------0---0-----|----------0----------0-----------|
|-------1-------------2-------2---|-------1---------------2---------|
|-----2-------------3-----------3-|-----2-------------3-------------|
|---2-------------3---------------|---2----------2--3---------------|
|-0-------------------------------|-0-------------------------------|


|-------------------------0-------|---------------------------------|
|-----------------------0---0-----|----------0------------0---------|
|-------1-------------2-------2---|-------1-------------2-----------|
|-----2-------------3-----------3-|-----2-------------3-------------|
|---2-------------3---------------|---2----------2--3---------------|
|-0-------------------------------|-0-------------------------------|


|-------------------------0-------|---------------------------0-----|
|-----------------------0---0-----|----------0----------0-------0---|
|-------1-------------2-------2---|-------1---------------2-------2-|
|-----2-------------3-----------3-|-----2-------------3-------------|
|---2----------2--3---------------|---2----------2--3---------------|
|-0-------------------------------|-0-------------------------------|

 
|-------------------------0-------|---------------------------------|
|-----------------------0---0-----|----------0----------0-----0-----|
|-------1-------------2-------2---|-------1---------------2-----2---|
|-----2-------------3-----------3-|-----2-------------3-----------3-|
|---2----------2--3---------------|---2----------2--3---------------|
|-0-------------------------------|-0-------------------------------|


pre ref

|-------0---------------0---------|-------0---------------0---------|
|-----------0---------------0-----|-----------0---------------0-----|
|-------------4---------------4---|-------------4---------------4---|
|-----0---------0-----0---------0-|-----0---------0-----0---------0-|
|-0-------------------------------|---------------------------------|
|-----------------4---------------|-3---------------5---------------|


|-------0---------------0---------|---------0-------0---------------|
|-----------0---------------0-----|-----------0-----0---------/-----|
|-------------4---------------4---|----0-2------0---2-------/-------|
|-----0---------0-----0---------0-|-----------------0-----/---------|
|---------------------------------|-3---------------3---/-----------|
|-4---------------3---------------|-1---------------1---------------|



  Refen
|-0-------------3-----------------|-0-----------3-------0-----------|
|-0-------------3-------0---------|-0-----------3-------0-----------|
|-1-------------0-------2---------|-1-----------0-------2-----------|
|-0-------------0-------0---------|-0-----------0-------0-----------|
|-2-------------3-------4---------|-2-----------3-------3-----------|
|-0-------------------------------|-0-------------------1-----------|

Awatar użytkownika
radd91
Posty: 26
Rejestracja: 19-12-2013 20:59

26-09-2016 20:03

Wiem, że prawie po roku ale mam nadzieję, że będzie mi wybaczone. Dziękuję za pomoc! :)

PS: gotówką czy przelewem?

petlica
Posty: 100
Rejestracja: 13-12-2010 21:45

28-09-2016 00:21

Nie ma sprawy :)

Wróć do „Szukam opracowania”