Keeisim
Posty: 3
Rejestracja: 06-07-2015 22:56

06-07-2015 22:59

Witam, czy ktoś mógłby mi rozpisać jak zagrać powyższy utwór na gitarze akustycznej? Jestem początkującym gitarzystą i niestety nie potrafię zrobić tego jeszcze sam ze słuchu, a bardzo mi zależy na nauczeniu się tego kawałka. Pozdrawiam i z góry dziękuję za wszelką pomoc.

Keeisim
Posty: 3
Rejestracja: 06-07-2015 22:56

12-07-2015 09:22

bump

petlica
Posty: 101
Rejestracja: 13-12-2010 21:45

26-08-2015 02:20

Trochę dawno było, ale może się przyda

Kod: Zaznacz cały

         h       fis    G            h       fis    G
|-----------------------3---|-----------------------3---|
|-----2--3----5--2---3--3---|-----2--3----5--2---3--3---|
|---4----4----x--2------4---|---4----4----x--2------4---|
|-4------4----4--4------5---|-4------4----4--4------5---|
|--------2----2--4------5---|--------2----2--4------5---|
|----------------2------3---|----------------2------3---|

      E            h          G      F#    h
|-----0----------0-2--------|-3------2------------------|
|-2h3-0--0-----3---3--5-3---|-3------2-----3------------|
|-----1----1---1---2------4-|-4------3-----4------------|
|-----2------------4--------|-5------4-----4------------|
|-----2------------2--------|-5------4-----2------------|
|-----0---------------------|-3------2------------------|


  G   F#  h         G   F#  h
|-----------------|-----------------|
|-3-3-2-2-3-3-3-3-|-3-3-2-2-3-3-3-3-|
|-4-4-3-3-4-4-4-4-|-4-4-3-3-4-4-4-4-|
|-5-5-4-4-4-4-4-4-|-5-5-4-4-4-4-4-4-|
|-5-5-4-4-2-2-2-2-|-5-5-4-4-2-2-2-2-|
|-3-3-2-2---------|-3-3-2-2---------|


Pozdr

Keeisim
Posty: 3
Rejestracja: 06-07-2015 22:56

19-11-2015 10:24

Bardzo Ci dziękuję :)

Wróć do „Szukam opracowania”