piotrek227
Posty: 1
Rejestracja: 07-12-2017 20:08

07-12-2017 20:11

witam poszukuje tabów do piosenki niech zyje bal solo w dówch glosach w tonacji fis

petlica
Posty: 97
Rejestracja: 13-12-2010 21:45

06-01-2018 19:26

Kiedyś takie coś sobie rozpisałem

Kod: Zaznacz cały

|-----------------------------------------------------------------------|
|-12~--11-12~--11-12~------------------12-15~------------10~------------|
|-----------------------------11-12-14----------12-11~------------------|
|-----------------------12-14-------------------------------------------|
|-----------------------------------------------------------------------|
|-----------------------------------------------------------------------|


|------------------------------------------------------------------------------------------|
|-13~--12-13~--12-13~------------------12-13----/17---15-----------------------------------|
|-----------------------------11-12-14---------------------------------------------9-11-12-|
|-----------------------12-14----------------------------------------------9-10-12---------|
|------------------------------------------------------------------9-10-12-----------------|
|------------------------------------------------------------10-12-------------------------|



Gtr1&2
|--------------------------------------10-----13-11~---12~--------------|
|-12~--11-12~--11-12~----8-10-12-11-12-12-----15-12~---13~--------------|
|-12~--11-12~--11-12~----7--9-12-11-12----------------------------------|
|-----------------------------------------------------------------------|
|-----------------------------------------------------------------------|
|-----------------------------------------------------------------------|
|                                                                       |
|Gtr3                                                                   |
|-----------------------------------------------------------------------|
|-----------------------------------------------------------------------|
|--------------------------------------10~----12-11~---12~--------------|
|-12~--11-12~--11-12~----9-10-12-11-12----------------------------------|
|-----------------------------------------------------------------------|
|-----------------------------------------------------------------------|



Gtr1&2
|--12----11-12-15~-----10-----9-10-15~-----18--15------------------------------|
|--13----12-13-16~-----11----10-11-16~---------15-15---------------------------|
|-------------------------------------------------15-14h15p14h15p14h15--12-12~-|
|-----------------------------------------------------------------------12-12~-|
|------------------------------------------------------------------------------|
|------------------------------------------------------------------------------|
|                                                                              |
|Gtr3                                                                          |
|------------------------------------------------------------------------------|
|--------------11~-----------------11~-----15--11------------------------------|
|-/12~---11-12--------/12~---11-12----------------12---------------------------|
|----------------------------------------------------12h13p12h13p12h13---------|
|----------------------------------------------------------------------/13~----|
|------------------------------------------------------------------------------|


|-----------------|-----------------|
|-----------------|-----------------|
|-----------------|-----------------|
|-----------------|-----------------|
|-----------------|-----5-5-7-7-9-9-|
|-----------------|-----------------|

Ref
|-----------------|-----------------|-----------------|-----------------|
|-----------------|-----------------|-----------------|-----------------|
|-----------------|-----------------|-----------------|-----------------|
|-----------------|-----------------|-----------------|-----------------|
|---------5~------|---------5~------|---------5~------|-----------------|
|-3~--------------|-3~--------------|-3~--------------|-6~------5~------|


|-----------------|-----------------|-----------------|-----------------|
|-----------------|-----------------|-----------------|-----------------|
|-----------------|-----------------|-----------------|-----------------|
|-----------------|-----------------|-----------------|-----------------|
|---------5~------|---------5~------|---------5~------|---------5-------|
|-5~--------------|-5~--------------|-5~--------------|-3~----------5-6-|


pozdr
petlica

Wróć do „Szukam opracowania”